ISO-10303-21;
HEADER;
FILE_DESCRIPTION (( 'STEP AP203' ),
    '1' );
FILE_NAME ('Q-QZWP-R4-20-532-M.STEP',
    '2020-12-23T01:25:58',
    ( '' ),
    ( '' ),
    'SwSTEP 2.0',
    'SolidWorks 2020',
    '' );
FILE_SCHEMA (( 'CONFIG_CONTROL_DESIGN' ));
ENDSEC;

DATA;
#1 = ADVANCED_FACE ( 'NONE', ( #331 ), #132, .F. ) ;
#2 = DIRECTION ( 'NONE',  ( -1.000000000000000000, -0.000000000000000000, -0.000000000000000000 ) ) ;
#3 = AXIS2_PLACEMENT_3D ( 'NONE', #254, #311, #176 ) ;
#4 = EDGE_LOOP ( 'NONE', ( #15, #16, #51, #185 ) ) ;
#5 = MANIFOLD_SOLID_BREP ( 'Ðý×', #284 ) ;
#6 = LINE ( 'NONE', #55, #97 ) ;
#7 = EDGE_CURVE ( 'NONE', #174, #135, #127, .T. ) ;
#8 = CARTESIAN_POINT ( 'NONE',  ( -1.614212418857619014, 0.000000000000000000, 0.000000000000000000 ) ) ;
#9 = DIRECTION ( 'NONE',  ( -1.000000000000000000, 0.000000000000000000, -0.000000000000000000 ) ) ;
#10 = APPROVAL_DATE_TIME ( #145, #143 ) ;
#11 = CC_DESIGN_PERSON_AND_ORGANIZATION_ASSIGNMENT ( #329, #69, ( #78 ) ) ;
#12 = AXIS2_PLACEMENT_3D ( 'NONE', #256, #148, #20 ) ;
#13 = APPROVAL_PERSON_ORGANIZATION ( #273, #294, #269 ) ;
#14 = APPLICATION_PROTOCOL_DEFINITION ( 'international standard', 'config_control_design', 1994, #122 ) ;
#15 = ORIENTED_EDGE ( 'NONE', *, *, #7, .F. ) ;
#16 = ORIENTED_EDGE ( 'NONE', *, *, #115, .T. ) ;
#17 = CIRCLE ( 'NONE', #207, 10.00000000000000000 ) ;
#18 = ORIENTED_EDGE ( 'NONE', *, *, #195, .T. ) ;
#19 = ORIENTED_EDGE ( 'NONE', *, *, #231, .F. ) ;
#20 = DIRECTION ( 'NONE',  ( 0.000000000000000000, 0.000000000000000000, 1.000000000000000000 ) ) ;
#21 = DIRECTION ( 'NONE',  ( 0.000000000000000000, 0.000000000000000000, -1.000000000000000000 ) ) ;
#22 = FACE_OUTER_BOUND ( 'NONE', #272, .T. ) ;
#23 = VERTEX_POINT ( 'NONE', #173 ) ;
#24 = CARTESIAN_POINT ( 'NONE',  ( -1.614212418857619014, 1.224646799147353256E-15, -10.00000000000000000 ) ) ;
#25 = ORIENTED_EDGE ( 'NONE', *, *, #128, .F. ) ;
#26 = PLANE ( 'NONE',  #213 ) ;
#27 = ADVANCED_FACE ( 'NONE', ( #22 ), #209, .T. ) ;
#28 = ADVANCED_FACE ( 'NONE', ( #71, #46 ), #155, .F. ) ;
#29 = CARTESIAN_POINT ( 'NONE',  ( 3.000000000000000000, 1.555301434917138433E-15, -12.69999999999999929 ) ) ;
#30 = CC_DESIGN_APPROVAL ( #294, ( #169 ) ) ;
#31 = DIRECTION ( 'NONE',  ( -1.000000000000000000, -0.000000000000000000, -0.000000000000000000 ) ) ;
#32 = APPROVAL_STATUS ( 'not_yet_approved' ) ;
#33 = DESIGN_CONTEXT ( 'detailed design', #330, 'design' ) ;
#34 = AXIS2_PLACEMENT_3D ( 'NONE', #224, #31, #192 ) ;
#35 = DIRECTION ( 'NONE',  ( 1.000000000000000000, 0.000000000000000000, 0.000000000000000000 ) ) ;
#36 = EDGE_LOOP ( 'NONE', ( #79, #287, #82, #95 ) ) ;
#37 = APPROVAL_STATUS ( 'not_yet_approved' ) ;
#38 = ADVANCED_BREP_SHAPE_REPRESENTATION ( 'Q-QZWP-R4-20-532-M', ( #5, #295 ), #56 ) ;
#39 = CIRCLE ( 'NONE', #237, 10.00000000000000000 ) ;
#40 = DATE_AND_TIME ( #116, #309 ) ;
#41 = ORIENTED_EDGE ( 'NONE', *, *, #61, .T. ) ;
#42 = CIRCLE ( 'NONE', #138, 10.00000000000000000 ) ;
#43 = ORIENTED_EDGE ( 'NONE', *, *, #144, .F. ) ;
#44 = EDGE_CURVE ( 'NONE', #76, #203, #313, .T. ) ;
#45 = PERSON_AND_ORGANIZATION ( #113, #233 ) ;
#46 = FACE_OUTER_BOUND ( 'NONE', #181, .T. ) ;
#47 = ADVANCED_FACE ( 'NONE', ( #93 ), #149, .F. ) ;
#48 = COORDINATED_UNIVERSAL_TIME_OFFSET ( 8, 0, .AHEAD. ) ;
#49 = CARTESIAN_POINT ( 'NONE',  ( -1.614212418857619014, 0.000000000000000000, 10.00000000000000000 ) ) ;
#50 = DIRECTION ( 'NONE',  ( 0.000000000000000000, 0.000000000000000000, 1.000000000000000000 ) ) ;
#51 = ORIENTED_EDGE ( 'NONE', *, *, #99, .T. ) ;
#52 = DIRECTION ( 'NONE',  ( 0.000000000000000000, 0.000000000000000000, 1.000000000000000000 ) ) ;
#53 = FACE_BOUND ( 'NONE', #274, .T. ) ;
#54 = VECTOR ( 'NONE', #335, 1000.000000000000000 ) ;
#55 = CARTESIAN_POINT ( 'NONE',  ( -1.614212418857619014, 1.555301434917138433E-15, -12.69999999999999929 ) ) ;
#56 =( GEOMETRIC_REPRESENTATION_CONTEXT ( 3 ) GLOBAL_UNCERTAINTY_ASSIGNED_CONTEXT ( ( #277 ) ) GLOBAL_UNIT_ASSIGNED_CONTEXT ( ( #248, #166, #221 ) ) REPRESENTATION_CONTEXT ( 'NONE', 'WORKASPACE' ) );
#57 = LINE ( 'NONE', #163, #243 ) ;
#58 = CYLINDRICAL_SURFACE ( 'NONE', #324, 10.00000000000000000 ) ;
#59 = CIRCLE ( 'NONE', #263, 12.69999999999999929 ) ;
#60 = CALENDAR_DATE ( 2020, 23, 12 ) ;
#61 = EDGE_CURVE ( 'NONE', #210, #318, #101, .T. ) ;
#62 = CARTESIAN_POINT ( 'NONE',  ( -3.000000000000000000, 0.000000000000000000, 12.69999999999999929 ) ) ;
#63 = ORIENTED_EDGE ( 'NONE', *, *, #188, .F. ) ;
#64 = CALENDAR_DATE ( 2020, 23, 12 ) ;
#65 = VERTEX_POINT ( 'NONE', #259 ) ;
#66 = COORDINATED_UNIVERSAL_TIME_OFFSET ( 8, 0, .AHEAD. ) ;
#67 = DIRECTION ( 'NONE',  ( 1.000000000000000000, 0.000000000000000000, 0.000000000000000000 ) ) ;
#68 = DIRECTION ( 'NONE',  ( -1.000000000000000000, -0.000000000000000000, -0.000000000000000000 ) ) ;
#69 = PERSON_AND_ORGANIZATION_ROLE ( 'classification_officer' ) ;
#70 = VECTOR ( 'NONE', #268, 1000.000000000000000 ) ;
#71 = FACE_BOUND ( 'NONE', #226, .T. ) ;
#72 = EDGE_CURVE ( 'NONE', #135, #251, #292, .T. ) ;
#73 = APPROVAL_STATUS ( 'not_yet_approved' ) ;
#74 = CARTESIAN_POINT ( 'NONE',  ( -1.614212418857619014, 0.000000000000000000, 0.000000000000000000 ) ) ;
#75 = DIRECTION ( 'NONE',  ( 0.000000000000000000, 0.000000000000000000, 1.000000000000000000 ) ) ;
#76 = VERTEX_POINT ( 'NONE', #334 ) ;
#77 = CARTESIAN_POINT ( 'NONE',  ( 2.999999999999999112, 1.224646799147353256E-15, -10.00000000000000000 ) ) ;
#78 = SECURITY_CLASSIFICATION ( '', '', #302 ) ;
#79 = ORIENTED_EDGE ( 'NONE', *, *, #161, .F. ) ;
#80 = APPROVAL ( #73, 'UNSPECIFIED' ) ;
#81 = CARTESIAN_POINT ( 'NONE',  ( 3.000000000000000000, 0.000000000000000000, 0.000000000000000000 ) ) ;
#82 = ORIENTED_EDGE ( 'NONE', *, *, #128, .T. ) ;
#83 = PLANE ( 'NONE',  #258 ) ;
#84 = DIRECTION ( 'NONE',  ( 1.000000000000000000, 0.000000000000000000, 0.000000000000000000 ) ) ;
#85 = CC_DESIGN_SECURITY_CLASSIFICATION ( #78, ( #169 ) ) ;
#86 = DIRECTION ( 'NONE',  ( -1.000000000000000000, -0.000000000000000000, -0.000000000000000000 ) ) ;
#87 = APPLICATION_PROTOCOL_DEFINITION ( 'international standard', 'config_control_design', 1994, #330 ) ;
#88 = CIRCLE ( 'NONE', #92, 12.69999999999999929 ) ;
#89 = CYLINDRICAL_SURFACE ( 'NONE', #300, 12.69999999999999929 ) ;
#90 = EDGE_CURVE ( 'NONE', #65, #332, #179, .T. ) ;
#91 = COORDINATED_UNIVERSAL_TIME_OFFSET ( 8, 0, .AHEAD. ) ;
#92 = AXIS2_PLACEMENT_3D ( 'NONE', #81, #262, #187 ) ;
#93 = FACE_OUTER_BOUND ( 'NONE', #299, .T. ) ;
#94 = ORIENTED_EDGE ( 'NONE', *, *, #323, .T. ) ;
#95 = ORIENTED_EDGE ( 'NONE', *, *, #44, .T. ) ;
#96 = DIRECTION ( 'NONE',  ( -1.000000000000000000, -0.000000000000000000, -0.000000000000000000 ) ) ;
#97 = VECTOR ( 'NONE', #211, 1000.000000000000000 ) ;
#98 = LINE ( 'NONE', #49, #190 ) ;
#99 = EDGE_CURVE ( 'NONE', #23, #251, #98, .T. ) ;
#100 = CARTESIAN_POINT ( 'NONE',  ( -2.500000000000000444, 0.000000000000000000, 0.000000000000000000 ) ) ;
#101 = CIRCLE ( 'NONE', #136, 10.00000000000000000 ) ;
#102 = DIRECTION ( 'NONE',  ( 0.000000000000000000, 0.000000000000000000, 1.000000000000000000 ) ) ;
#103 = EDGE_LOOP ( 'NONE', ( #212, #18, #303, #252 ) ) ;
#104 = CC_DESIGN_PERSON_AND_ORGANIZATION_ASSIGNMENT ( #205, #129, ( #169 ) ) ;
#105 = CARTESIAN_POINT ( 'NONE',  ( 2.500000000000000888, 1.224646799147353256E-15, -10.00000000000000000 ) ) ;
#106 = AXIS2_PLACEMENT_3D ( 'NONE', #191, #220, #293 ) ;
#107 = ORIENTED_EDGE ( 'NONE', *, *, #217, .T. ) ;
#108 = EDGE_CURVE ( 'NONE', #203, #76, #39, .T. ) ;
#109 = CARTESIAN_POINT ( 'NONE',  ( -3.000000000000000000, 1.555301434917138433E-15, -12.69999999999999929 ) ) ;
#110 = DIRECTION ( 'NONE',  ( 0.000000000000000000, 0.000000000000000000, -1.000000000000000000 ) ) ;
#111 = DIRECTION ( 'NONE',  ( -1.000000000000000000, -0.000000000000000000, -0.000000000000000000 ) ) ;
#112 = LOCAL_TIME ( 9, 25, 58.00000000000000000, #197 ) ;
#113 = PERSON ( 'UNSPECIFIED', 'UNSPECIFIED', 'UNSPECIFIED', ('UNSPECIFIED'), ('UNSPECIFIED'), ('UNSPECIFIED') ) ;
#114 = PRODUCT_DEFINITION ( 'UNKNOWN', '', #169, #33 ) ;
#115 = EDGE_CURVE ( 'NONE', #174, #23, #275, .T. ) ;
#116 = CALENDAR_DATE ( 2020, 23, 12 ) ;
#117 = LOCAL_TIME ( 9, 25, 58.00000000000000000, #91 ) ;
#118 = EDGE_CURVE ( 'NONE', #318, #210, #17, .T. ) ;
#119 = APPROVAL_ROLE ( '' ) ;
#120 = VECTOR ( 'NONE', #206, 1000.000000000000000 ) ;
#121 = EDGE_LOOP ( 'NONE', ( #153, #158 ) ) ;
#122 = APPLICATION_CONTEXT ( 'configuration controlled 3d designs of mechanical parts and assemblies' ) ;
#123 = ORIENTED_EDGE ( 'NONE', *, *, #108, .T. ) ;
#124 = APPROVAL_PERSON_ORGANIZATION ( #199, #80, #310 ) ;
#125 = DATE_AND_TIME ( #230, #154 ) ;
#126 = EDGE_LOOP ( 'NONE', ( #63, #172 ) ) ;
#127 = LINE ( 'NONE', #234, #120 ) ;
#128 = EDGE_CURVE ( 'NONE', #318, #76, #57, .T. ) ;
#129 = PERSON_AND_ORGANIZATION_ROLE ( 'creator' ) ;
#130 = CARTESIAN_POINT ( 'NONE',  ( -3.000000000000000444, 0.000000000000000000, 0.000000000000000000 ) ) ;
#131 = CC_DESIGN_APPROVAL ( #143, ( #114 ) ) ;
#132 = CYLINDRICAL_SURFACE ( 'NONE', #267, 10.00000000000000000 ) ;
#133 = DIRECTION ( 'NONE',  ( 0.000000000000000000, 0.000000000000000000, 1.000000000000000000 ) ) ;
#134 = CC_DESIGN_PERSON_AND_ORGANIZATION_ASSIGNMENT ( #298, #247, ( #114 ) ) ;
#135 = VERTEX_POINT ( 'NONE', #141 ) ;
#136 = AXIS2_PLACEMENT_3D ( 'NONE', #229, #68, #276 ) ;
#137 = CARTESIAN_POINT ( 'NONE',  ( 2.999999999999999112, 12.69999999999999929, 0.000000000000000000 ) ) ;
#138 = AXIS2_PLACEMENT_3D ( 'NONE', #219, #84, #110 ) ;
#139 = DIRECTION ( 'NONE',  ( -0.000000000000000000, 0.000000000000000000, 1.000000000000000000 ) ) ;
#140 = ADVANCED_FACE ( 'NONE', ( #240 ), #58, .F. ) ;
#141 = CARTESIAN_POINT ( 'NONE',  ( -3.000000000000000444, 1.224646799147353256E-15, -10.00000000000000000 ) ) ;
#142 = PERSON_AND_ORGANIZATION_ROLE ( 'design_owner' ) ;
#143 = APPROVAL ( #32, 'UNSPECIFIED' ) ;
#144 = EDGE_CURVE ( 'NONE', #65, #249, #59, .T. ) ;
#145 = DATE_AND_TIME ( #64, #117 ) ;
#146 = ORIENTED_EDGE ( 'NONE', *, *, #99, .F. ) ;
#147 = CALENDAR_DATE ( 2020, 23, 12 ) ;
#148 = DIRECTION ( 'NONE',  ( -1.000000000000000000, -0.000000000000000000, -0.000000000000000000 ) ) ;
#149 = CYLINDRICAL_SURFACE ( 'NONE', #12, 10.00000000000000000 ) ;
#150 = ADVANCED_FACE ( 'NONE', ( #266 ), #26, .F. ) ;
#151 = APPROVAL_DATE_TIME ( #305, #80 ) ;
#152 = DIRECTION ( 'NONE',  ( -1.000000000000000000, -0.000000000000000000, -0.000000000000000000 ) ) ;
#153 = ORIENTED_EDGE ( 'NONE', *, *, #44, .F. ) ;
#154 = LOCAL_TIME ( 9, 25, 58.00000000000000000, #48 ) ;
#155 = PLANE ( 'NONE',  #3 ) ;
#156 = ORIENTED_EDGE ( 'NONE', *, *, #195, .F. ) ;
#157 = CARTESIAN_POINT ( 'NONE',  ( 2.999999999999999112, 0.000000000000000000, 10.00000000000000000 ) ) ;
#158 = ORIENTED_EDGE ( 'NONE', *, *, #108, .F. ) ;
#159 = CARTESIAN_POINT ( 'NONE',  ( 2.500000000000000444, 10.00000000000000000, 0.000000000000000000 ) ) ;
#160 = DIRECTION ( 'NONE',  ( 0.000000000000000000, 0.000000000000000000, 1.000000000000000000 ) ) ;
#161 = EDGE_CURVE ( 'NONE', #210, #203, #260, .T. ) ;
#162 = DIRECTION ( 'NONE',  ( -1.000000000000000000, -0.000000000000000000, -0.000000000000000000 ) ) ;
#163 = CARTESIAN_POINT ( 'NONE',  ( -1.614212418857619014, 0.000000000000000000, 10.00000000000000000 ) ) ;
#164 = AXIS2_PLACEMENT_3D ( 'NONE', #74, #281, #178 ) ;
#165 = CC_DESIGN_DATE_AND_TIME_ASSIGNMENT ( #325, #171, ( #114 ) ) ;
#166 =( NAMED_UNIT ( * ) PLANE_ANGLE_UNIT ( ) SI_UNIT ( $, .RADIAN. ) );
#167 = MECHANICAL_CONTEXT ( 'NONE', #122, 'mechanical' ) ;
#168 = DIRECTION ( 'NONE',  ( 0.000000000000000000, 0.000000000000000000, 1.000000000000000000 ) ) ;
#169 = PRODUCT_DEFINITION_FORMATION_WITH_SPECIFIED_SOURCE ( 'ANY', '', #271, .NOT_KNOWN. ) ;
#170 = ORIENTED_EDGE ( 'NONE', *, *, #72, .F. ) ;
#171 = DATE_TIME_ROLE ( 'creation_date' ) ;
#172 = ORIENTED_EDGE ( 'NONE', *, *, #115, .F. ) ;
#173 = CARTESIAN_POINT ( 'NONE',  ( -2.500000000000000444, 0.000000000000000000, 10.00000000000000000 ) ) ;
#174 = VERTEX_POINT ( 'NONE', #317 ) ;
#175 = CC_DESIGN_PERSON_AND_ORGANIZATION_ASSIGNMENT ( #270, #142, ( #271 ) ) ;
#176 = DIRECTION ( 'NONE',  ( 0.000000000000000000, 0.000000000000000000, -1.000000000000000000 ) ) ;
#177 = AXIS2_PLACEMENT_3D ( 'NONE', #8, #216, #186 ) ;
#178 = DIRECTION ( 'NONE',  ( 0.000000000000000000, 0.000000000000000000, 1.000000000000000000 ) ) ;
#179 = LINE ( 'NONE', #279, #54 ) ;
#180 = DIRECTION ( 'NONE',  ( 0.000000000000000000, 0.000000000000000000, 1.000000000000000000 ) ) ;
#181 = EDGE_LOOP ( 'NONE', ( #227, #94 ) ) ;
#182 = DIRECTION ( 'NONE',  ( 0.000000000000000000, 0.000000000000000000, 1.000000000000000000 ) ) ;
#183 = ORIENTED_EDGE ( 'NONE', *, *, #188, .T. ) ;
#184 = DIRECTION ( 'NONE',  ( -1.000000000000000000, -0.000000000000000000, -0.000000000000000000 ) ) ;
#185 = ORIENTED_EDGE ( 'NONE', *, *, #231, .T. ) ;
#186 = DIRECTION ( 'NONE',  ( 0.000000000000000000, 0.000000000000000000, 1.000000000000000000 ) ) ;
#187 = DIRECTION ( 'NONE',  ( 0.000000000000000000, 0.000000000000000000, 1.000000000000000000 ) ) ;
#188 = EDGE_CURVE ( 'NONE', #23, #174, #42, .T. ) ;
#189 = PLANE ( 'NONE',  #106 ) ;
#190 = VECTOR ( 'NONE', #152, 1000.000000000000000 ) ;
#191 = CARTESIAN_POINT ( 'NONE',  ( -2.500000000000000444, 10.00000000000000000, 0.000000000000000000 ) ) ;
#192 = DIRECTION ( 'NONE',  ( 0.000000000000000000, 0.000000000000000000, 1.000000000000000000 ) ) ;
#193 = ADVANCED_FACE ( 'NONE', ( #288, #53 ), #83, .F. ) ;
#194 = PERSON_AND_ORGANIZATION ( #113, #233 ) ;
#195 = EDGE_CURVE ( 'NONE', #249, #235, #6, .T. ) ;
#196 = EDGE_LOOP ( 'NONE', ( #43, #278 ) ) ;
#197 = COORDINATED_UNIVERSAL_TIME_OFFSET ( 8, 0, .AHEAD. ) ;
#198 = CIRCLE ( 'NONE', #253, 10.00000000000000000 ) ;
#199 = PERSON_AND_ORGANIZATION ( #113, #233 ) ;
#200 = PRODUCT_DEFINITION_SHAPE ( 'NONE', 'NONE',  #114 ) ;
#201 = DIRECTION ( 'NONE',  ( -1.000000000000000000, -0.000000000000000000, -0.000000000000000000 ) ) ;
#202 = PRODUCT_RELATED_PRODUCT_CATEGORY ( 'detail', '', ( #271 ) ) ;
#203 = VERTEX_POINT ( 'NONE', #105 ) ;
#204 = ORIENTED_EDGE ( 'NONE', *, *, #323, .F. ) ;
#205 = PERSON_AND_ORGANIZATION ( #113, #233 ) ;
#206 = DIRECTION ( 'NONE',  ( -1.000000000000000000, -0.000000000000000000, -0.000000000000000000 ) ) ;
#207 = AXIS2_PLACEMENT_3D ( 'NONE', #312, #286, #50 ) ;
#208 = CARTESIAN_POINT ( 'NONE',  ( 2.500000000000000888, 0.000000000000000000, 0.000000000000000000 ) ) ;
#209 = CYLINDRICAL_SURFACE ( 'NONE', #164, 12.69999999999999929 ) ;
#210 = VERTEX_POINT ( 'NONE', #77 ) ;
#211 = DIRECTION ( 'NONE',  ( -1.000000000000000000, -0.000000000000000000, -0.000000000000000000 ) ) ;
#212 = ORIENTED_EDGE ( 'NONE', *, *, #144, .T. ) ;
#213 = AXIS2_PLACEMENT_3D ( 'NONE', #159, #9, #139 ) ;
#214 = ORIENTED_EDGE ( 'NONE', *, *, #61, .F. ) ;
#215 = CARTESIAN_POINT ( 'NONE',  ( -3.000000000000000444, 0.000000000000000000, 10.00000000000000000 ) ) ;
#216 = DIRECTION ( 'NONE',  ( -1.000000000000000000, -0.000000000000000000, -0.000000000000000000 ) ) ;
#217 = EDGE_CURVE ( 'NONE', #249, #65, #88, .T. ) ;
#218 = AXIS2_PLACEMENT_3D ( 'NONE', #320, #162, #52 ) ;
#219 = CARTESIAN_POINT ( 'NONE',  ( -2.500000000000000444, 0.000000000000000000, 0.000000000000000000 ) ) ;
#220 = DIRECTION ( 'NONE',  ( 1.000000000000000000, 0.000000000000000000, 0.000000000000000000 ) ) ;
#221 =( NAMED_UNIT ( * ) SI_UNIT ( $, .STERADIAN. ) SOLID_ANGLE_UNIT ( ) );
#222 = AXIS2_PLACEMENT_3D ( 'NONE', #100, #67, #21 ) ;
#223 = CC_DESIGN_DATE_AND_TIME_ASSIGNMENT ( #125, #255, ( #78 ) ) ;
#224 = CARTESIAN_POINT ( 'NONE',  ( -3.000000000000000000, 0.000000000000000000, 0.000000000000000000 ) ) ;
#225 = CARTESIAN_POINT ( 'NONE',  ( 0.000000000000000000, 0.000000000000000000, 0.000000000000000000 ) ) ;
#226 = EDGE_LOOP ( 'NONE', ( #19, #170 ) ) ;
#227 = ORIENTED_EDGE ( 'NONE', *, *, #297, .T. ) ;
#228 = SHAPE_DEFINITION_REPRESENTATION ( #200, #38 ) ;
#229 = CARTESIAN_POINT ( 'NONE',  ( 2.999999999999999112, 0.000000000000000000, 0.000000000000000000 ) ) ;
#230 = CALENDAR_DATE ( 2020, 23, 12 ) ;
#231 = EDGE_CURVE ( 'NONE', #251, #135, #198, .T. ) ;
#232 = DIRECTION ( 'NONE',  ( -1.000000000000000000, -0.000000000000000000, -0.000000000000000000 ) ) ;
#233 = ORGANIZATION ( 'UNSPECIFIED', 'UNSPECIFIED', '' ) ;
#234 = CARTESIAN_POINT ( 'NONE',  ( -1.614212418857619014, 1.224646799147353256E-15, -10.00000000000000000 ) ) ;
#235 = VERTEX_POINT ( 'NONE', #109 ) ;
#236 = ORIENTED_EDGE ( 'NONE', *, *, #90, .T. ) ;
#237 = AXIS2_PLACEMENT_3D ( 'NONE', #257, #201, #133 ) ;
#238 = CARTESIAN_POINT ( 'NONE',  ( -1.614212418857619014, 0.000000000000000000, 0.000000000000000000 ) ) ;
#239 = CIRCLE ( 'NONE', #34, 12.69999999999999929 ) ;
#240 = FACE_OUTER_BOUND ( 'NONE', #4, .T. ) ;
#241 = CYLINDRICAL_SURFACE ( 'NONE', #177, 10.00000000000000000 ) ;
#242 = CARTESIAN_POINT ( 'NONE',  ( 3.000000000000000000, 0.000000000000000000, 0.000000000000000000 ) ) ;
#243 = VECTOR ( 'NONE', #184, 1000.000000000000000 ) ;
#244 = FACE_OUTER_BOUND ( 'NONE', #103, .T. ) ;
#245 = FACE_OUTER_BOUND ( 'NONE', #126, .T. ) ;
#246 = COORDINATED_UNIVERSAL_TIME_OFFSET ( 8, 0, .AHEAD. ) ;
#247 = PERSON_AND_ORGANIZATION_ROLE ( 'creator' ) ;
#248 =( LENGTH_UNIT ( ) NAMED_UNIT ( * ) SI_UNIT ( .MILLI., .METRE. ) );
#249 = VERTEX_POINT ( 'NONE', #29 ) ;
#250 = AXIS2_PLACEMENT_3D ( 'NONE', #208, #283, #180 ) ;
#251 = VERTEX_POINT ( 'NONE', #215 ) ;
#252 = ORIENTED_EDGE ( 'NONE', *, *, #90, .F. ) ;
#253 = AXIS2_PLACEMENT_3D ( 'NONE', #291, #264, #182 ) ;
#254 = CARTESIAN_POINT ( 'NONE',  ( -3.000000000000000000, 10.00000000000000000, 0.000000000000000000 ) ) ;
#255 = DATE_TIME_ROLE ( 'classification_date' ) ;
#256 = CARTESIAN_POINT ( 'NONE',  ( -1.614212418857619014, 0.000000000000000000, 0.000000000000000000 ) ) ;
#257 = CARTESIAN_POINT ( 'NONE',  ( 2.500000000000000888, 0.000000000000000000, 0.000000000000000000 ) ) ;
#258 = AXIS2_PLACEMENT_3D ( 'NONE', #137, #290, #315 ) ;
#259 = CARTESIAN_POINT ( 'NONE',  ( 3.000000000000000000, 0.000000000000000000, 12.69999999999999929 ) ) ;
#260 = LINE ( 'NONE', #24, #70 ) ;
#261 = AXIS2_PLACEMENT_3D ( 'NONE', #130, #232, #75 ) ;
#262 = DIRECTION ( 'NONE',  ( -1.000000000000000000, -0.000000000000000000, -0.000000000000000000 ) ) ;
#263 = AXIS2_PLACEMENT_3D ( 'NONE', #242, #111, #160 ) ;
#264 = DIRECTION ( 'NONE',  ( -1.000000000000000000, -0.000000000000000000, -0.000000000000000000 ) ) ;
#265 = ADVANCED_FACE ( 'NONE', ( #319 ), #241, .F. ) ;
#266 = FACE_OUTER_BOUND ( 'NONE', #121, .T. ) ;
#267 = AXIS2_PLACEMENT_3D ( 'NONE', #308, #96, #306 ) ;
#268 = DIRECTION ( 'NONE',  ( -1.000000000000000000, -0.000000000000000000, -0.000000000000000000 ) ) ;
#269 = APPROVAL_ROLE ( '' ) ;
#270 = PERSON_AND_ORGANIZATION ( #113, #233 ) ;
#271 = PRODUCT ( 'Q-QZWP-R4-20-532-M', 'Q-QZWP-R4-20-532-M', '', ( #167 ) ) ;
#272 = EDGE_LOOP ( 'NONE', ( #156, #107, #236, #204 ) ) ;
#273 = PERSON_AND_ORGANIZATION ( #113, #233 ) ;
#274 = EDGE_LOOP ( 'NONE', ( #314, #41 ) ) ;
#275 = CIRCLE ( 'NONE', #222, 10.00000000000000000 ) ;
#276 = DIRECTION ( 'NONE',  ( 0.000000000000000000, 0.000000000000000000, 1.000000000000000000 ) ) ;
#277 = UNCERTAINTY_MEASURE_WITH_UNIT (LENGTH_MEASURE( 1.000000000000000082E-05 ), #248, 'distance_accuracy_value', 'NONE');
#278 = ORIENTED_EDGE ( 'NONE', *, *, #217, .F. ) ;
#279 = CARTESIAN_POINT ( 'NONE',  ( -1.614212418857619014, 0.000000000000000000, 12.69999999999999929 ) ) ;
#280 = CIRCLE ( 'NONE', #218, 12.69999999999999929 ) ;
#281 = DIRECTION ( 'NONE',  ( -1.000000000000000000, -0.000000000000000000, -0.000000000000000000 ) ) ;
#282 = CC_DESIGN_PERSON_AND_ORGANIZATION_ASSIGNMENT ( #45, #285, ( #169 ) ) ;
#283 = DIRECTION ( 'NONE',  ( -1.000000000000000000, -0.000000000000000000, -0.000000000000000000 ) ) ;
#284 = CLOSED_SHELL ( 'NONE', ( #333, #265, #47, #150, #1, #140, #28, #27, #193, #326 ) ) ;
#285 = PERSON_AND_ORGANIZATION_ROLE ( 'design_supplier' ) ;
#286 = DIRECTION ( 'NONE',  ( -1.000000000000000000, -0.000000000000000000, -0.000000000000000000 ) ) ;
#287 = ORIENTED_EDGE ( 'NONE', *, *, #118, .F. ) ;
#288 = FACE_OUTER_BOUND ( 'NONE', #196, .T. ) ;
#289 = EDGE_LOOP ( 'NONE', ( #183, #301, #327, #146 ) ) ;
#290 = DIRECTION ( 'NONE',  ( -1.000000000000000000, 0.000000000000000000, -0.000000000000000000 ) ) ;
#291 = CARTESIAN_POINT ( 'NONE',  ( -3.000000000000000444, 0.000000000000000000, 0.000000000000000000 ) ) ;
#292 = CIRCLE ( 'NONE', #261, 10.00000000000000000 ) ;
#293 = DIRECTION ( 'NONE',  ( 0.000000000000000000, 0.000000000000000000, -1.000000000000000000 ) ) ;
#294 = APPROVAL ( #37, 'UNSPECIFIED' ) ;
#295 = AXIS2_PLACEMENT_3D ( 'NONE', #225, #168, #35 ) ;
#296 = DIRECTION ( 'NONE',  ( 0.000000000000000000, 0.000000000000000000, 1.000000000000000000 ) ) ;
#297 = EDGE_CURVE ( 'NONE', #332, #235, #280, .T. ) ;
#298 = PERSON_AND_ORGANIZATION ( #113, #233 ) ;
#299 = EDGE_LOOP ( 'NONE', ( #214, #304, #123, #25 ) ) ;
#300 = AXIS2_PLACEMENT_3D ( 'NONE', #322, #86, #296 ) ;
#301 = ORIENTED_EDGE ( 'NONE', *, *, #7, .T. ) ;
#302 = SECURITY_CLASSIFICATION_LEVEL ( 'unclassified' ) ;
#303 = ORIENTED_EDGE ( 'NONE', *, *, #297, .F. ) ;
#304 = ORIENTED_EDGE ( 'NONE', *, *, #161, .T. ) ;
#305 = DATE_AND_TIME ( #147, #328 ) ;
#306 = DIRECTION ( 'NONE',  ( 0.000000000000000000, 0.000000000000000000, 1.000000000000000000 ) ) ;
#307 = APPROVAL_DATE_TIME ( #40, #294 ) ;
#308 = CARTESIAN_POINT ( 'NONE',  ( -1.614212418857619014, 0.000000000000000000, 0.000000000000000000 ) ) ;
#309 = LOCAL_TIME ( 9, 25, 58.00000000000000000, #246 ) ;
#310 = APPROVAL_ROLE ( '' ) ;
#311 = DIRECTION ( 'NONE',  ( 1.000000000000000000, 0.000000000000000000, 0.000000000000000000 ) ) ;
#312 = CARTESIAN_POINT ( 'NONE',  ( 2.999999999999999112, 0.000000000000000000, 0.000000000000000000 ) ) ;
#313 = CIRCLE ( 'NONE', #250, 10.00000000000000000 ) ;
#314 = ORIENTED_EDGE ( 'NONE', *, *, #118, .T. ) ;
#315 = DIRECTION ( 'NONE',  ( -0.000000000000000000, 0.000000000000000000, 1.000000000000000000 ) ) ;
#316 = CC_DESIGN_APPROVAL ( #80, ( #78 ) ) ;
#317 = CARTESIAN_POINT ( 'NONE',  ( -2.500000000000000444, 1.224646799147353256E-15, -10.00000000000000000 ) ) ;
#318 = VERTEX_POINT ( 'NONE', #157 ) ;
#319 = FACE_OUTER_BOUND ( 'NONE', #289, .T. ) ;
#320 = CARTESIAN_POINT ( 'NONE',  ( -3.000000000000000000, 0.000000000000000000, 0.000000000000000000 ) ) ;
#321 = APPROVAL_PERSON_ORGANIZATION ( #194, #143, #119 ) ;
#322 = CARTESIAN_POINT ( 'NONE',  ( -1.614212418857619014, 0.000000000000000000, 0.000000000000000000 ) ) ;
#323 = EDGE_CURVE ( 'NONE', #235, #332, #239, .T. ) ;
#324 = AXIS2_PLACEMENT_3D ( 'NONE', #238, #2, #102 ) ;
#325 = DATE_AND_TIME ( #60, #112 ) ;
#326 = ADVANCED_FACE ( 'NONE', ( #245 ), #189, .F. ) ;
#327 = ORIENTED_EDGE ( 'NONE', *, *, #72, .T. ) ;
#328 = LOCAL_TIME ( 9, 25, 58.00000000000000000, #66 ) ;
#329 = PERSON_AND_ORGANIZATION ( #113, #233 ) ;
#330 = APPLICATION_CONTEXT ( 'configuration controlled 3d designs of mechanical parts and assemblies' ) ;
#331 = FACE_OUTER_BOUND ( 'NONE', #36, .T. ) ;
#332 = VERTEX_POINT ( 'NONE', #62 ) ;
#333 = ADVANCED_FACE ( 'NONE', ( #244 ), #89, .T. ) ;
#334 = CARTESIAN_POINT ( 'NONE',  ( 2.500000000000000888, 0.000000000000000000, 10.00000000000000000 ) ) ;
#335 = DIRECTION ( 'NONE',  ( -1.000000000000000000, -0.000000000000000000, -0.000000000000000000 ) ) ;
ENDSEC;
END-ISO-10303-21;
